Chapman Steven Curtis - Next Five Minutes The Tablature guitare télécharger gratuitement ou jouer en ligne

Tablature guitare pour Next Five Minutes The de Chapman Steven Curtis télécharger gratuitement et lire ou jouer en ligne: fichier .txt, 2.3 kb a 28 vues et 0 téléchargements.

Télécharger tablature guitare "Next Five Minutes The" (Chapman Steven Curtis)

Chapman Steven Curtis Nom du groupe
Next Five Minutes The Nom de la chanson
Tablatures guitare Type de partition
2.3 kb Taille du fichier
.TXT Type de fichier
28 vues
0 téléchargements
 
Es-tu un robot?

Next Five Minutes The tablature guitare lire et jouer en ligne

                    Steven Curtis Chapman
Next Five Minutes


My name is Matt Deel.  I did not tab this song.  My guitar teacher,
Brian Lewis, did.  The periods under the notes mean to palm mute the
note.  h means to hammer, r means to release.

Intro/verse
e------------------------------------------------------------[--------------
b------------------------------------------------------------[--------------
g-----------------------0---0---------0---0---------0---0----[----0---0-----
d-3----3--3----3------3---3---3-----3---3---3-----3---3---3--[3-----3---3---
a-5h6--6--5h6--5r3--3-----------3-0-----------0-6-----------6[--6---------6-
e------------------------------------------------------------[--------------
                    . .   .   . . . .   .   . . . .   .   . . . .   .   . .
play three times and on the third time without the part to the right of bars.

pre chorus
e--------
b--------
g--------
d-3-3-3-3
a-0-1-0-1
e--------

chorus
e-------------------------
b-------------------------
g-------------------------
d-3-3---5-7---7---5---3---play six times
a-0-1-1-3-5-5-5-5-3-3-1-1-
e-------------------------
      .     .   .   .   .

repeat all

bridge
e-----------------------------------------------------------------------
b-----6-----5---------6-----5-----1-------6-----5-1-------------------3-
g-------------------------------------------------3-------------0h2-0-0-
d---7-----5---------7-----5-----3---7---7-----5---3-----------1-------1-
a-5-----3-----1---5-----3-----1-----5-5-----3-----1-1-0-----1---------1-
e---------------3---------------------------------------3-1-------------
  . . . . . . . . . . . . . . . . .   . . . . . .

play chorus

solo (mess around with these chords around in this order listen to find
out how)

e-x-  -x-  -x-  -x-                      [play again but don't play -x-  -x-
b-1-  -3-  -5-  -6-                      [the strum mute play these 10-  -3-
g-x-  -x-  -x-  -x-  now strum a regular [chords                    10-  -3-
d-2-  -3-  -5-  -7-  mute a few times    [                          -x-  -x-
a-0-  -1-  -3-  -5-                      [                          -8-  -1-
e-x-  -x-  -x-  -x-                      [                          -x-  -x-

Well that's it.  Stephen Curtis Chapman rocks!  Remember Jesus loves you
and really is life!                    

Commentaires pour tablature guitare — Next Five Minutes The (Chapman Steven Curtis)

Autres partitions pour Next Five Minutes The de Chapman Steven Curtis:

Dernières vues des partitions de Chapman Steven Curtis: