Chapman Steven Curtis - Not Home Yet Accords guitare télécharger gratuitement ou jouer en ligne

Accords guitare pour Not Home Yet de Chapman Steven Curtis télécharger gratuitement et lire ou jouer en ligne: fichier .txt, 5.56 kb a 36 vues et 0 téléchargements.

Télécharger accords guitare "Not Home Yet" (Chapman Steven Curtis)

Chapman Steven Curtis Nom du groupe
Not Home Yet Nom de la chanson
Accords guitare Type de partition
5.56 kb Taille du fichier
.TXT Type de fichier
36 vues
0 téléchargements
 
Es-tu un robot?

Not Home Yet accords guitare lire et jouer en ligne

                    ****************************************
Song: "Not Home Yet"
Artist: Steven Curtis Chapman
Album: Greatest Hits
Copyright: 1997 Sparrow Records
Tabbed by: Brad Edwards (bradedwards@charter.net)
****************************************

This song is in Drop-D tuning.  DADGBE. 

If you would like the whole thing with words and all email me and I 
will be glad to send them.

Chord fingering positions:

    G      G9     G2    Gma7    D      D5    D/F#   D/E
E --X--  --3--  --X--  --X--  --2--  --2--  --2--  --2--  
B --X--  --3--  --X--  --X--  --3--  --3--  --3--  --3--
G --0--  --0--  --2--  --0--  --2--  --0--  --0--  --0--
D --0--  --0--  --0--  --4--  --0--  --0--  --4--  --2--
A --5--  --0--  --5--  --5--  --X--  --X--  --X--  --X--
D --5--  --0--  --5--  --5--  --X--  --X--  --X--  --X--

    1      2      3      4      5      6      7      8 
E --0--  --0--  --0--  --0--  --0--  --0--  --0--  --0--
B --0--  --0--  --0--  --0--  --0--  --0--  --0--  --0--
G --6--  --7--  --9--  --4--  --0--  --0--  --0--  --0--
D --4--  --5--  --7--  --5--  --4--  --0--  --4--  --0--
A --0--  --0--  --0--  --0--  --5--  --5--  --5--  --5--
D --X--  --X--  --X--  --X--  --2--  --2--  --5--  --5--
 
Intro (2x)

    2 2 3        1 1 4
E---------------------------------------------
B---------------------------------------------
G---7-7-9--------6-6-4------------------------
D---5-5-7--------4-4-5----------------0-------
A----------------------------------0h2-p20----
D----0-0-0-0-0-0--0-0--0-0-0-0-0-0--------0---

Verse 1

  2 2 3        1 1 4                         2 2 3        1 1 4
E-------------------------------------------------------------------------------
B-------------------------------------------------------------------------------
G-7-7-9--------6-6-4-------------------------7-7-9--------6-6-4-----------------
D-5-5-7--------4-4-5----------------0--------5-5-7--------4-4-5-----------------
A--------------------------------0h2-p20----------------------------------------
D--0-0-0-0-0-0--0-0--0-0-0-0-0-0--------0-----0-0-0-0-0-0--0-0--0-0-0-0-0-0-0-0-


    5   6      5   6       7   8      7   8
E---------------------------------------------------------
B--------------------0------------------------------------
G---0-0-0-0----0-0-0--0----0-0-0-0----0-0-0-0-------------
D---4-4-0--0---4-4-0---0---4-4-0--0---4-4-0--0------------
A-----------5----------------------5----------5-----------
D----2-2-2------2-2-2-------5-5-5------5-5-5--------------



Verse 2

E-------------------------------------------------------------------------------
B-------------------------------------------------------------------------------
G-7-7-9--------6-6-4-------------------------7-7-9--------6-6-4-----------------
D-5-5-7--------4-4-5----------------0--------5-5-7--------4-4-5-----------------
A--------------------------------0h2-p20----------------------------------------
D--0-0-0-0-0-0--0-0--0-0-0-0-0-0--------0-----0-0-0-0-0-0--0-0--0-0-0-0-0-0-0-0-



    5   6      5   6       7   8      
E---------------------------------------------------------
B--------------------0------------------------------------
G---0-0-0-0----0-0-0--0----0-0-0-0------------------------
D---4-4-0--0---4-4-0---0---4-4-0--0-----------------------
A-----------5----------------------5----------------------
D----2-2-2------2-2-2-------5-5-5-------------------------



G  D  D  D5  D/F#  D5  D/E  G  G2  G  Gma7  G


Bm7  Bm7/A  G  G9  D  G  G2  G  Gma7  G

Repeat Intro (1x)

Verse 3

  2 2 3        1 1 4                         2 2 3        1 1 4
E-------------------------------------------------------------------------------
B-------------------------------------------------------------------------------
G-7-7-9--------6-6-4-------------------------7-7-9--------6-6-4-----------------
D-5-5-7--------4-4-5----------------0--------5-5-7--------4-4-5-----------------
A--------------------------------0h2-p20----------------------------------------
D--0-0-0-0-0-0--0-0--0-0-0-0-0-0--------0-----0-0-0-0-0-0--0-0--0-0-0-0-0-0-0-0-



    5   6       5   6                            7   8                        
E-------------------------------------------------------------
B---------0-----------0---------------------------------------
G---0-0-0--0----0-0-0--0-------------------------0-0-0-0------
D---4-4-0---0---4-4-0---0------------------------4-4-0--0-----
A--------------------------------------------------------5----
D----2-2-2------2-2-2----------------------------5-5-5--------


G  D  D  D5  D/F#  D/5  D/E  G  G2  G  Gma7  G

Bm7  Bm7/A  G  G9  1   2    3  1 4


Bridge

E---------------
B---------------
G---------------
D------------0--
A----0-2-4/5----
D---5-----------

5  6  5   6

7  8  7   8

5  6  5   G


D  D  D5  D/F#  D/5  D/E  G  G2  G  Gma7  G

Bm7  Bm7/A  G  G9          


D  D  D5  D/F#  D/5  D/E  G  G2 G Gma7 G


Bm7  Bm7/A   G   G9         




D  G  G2  G  Gma7  G

D  G  G2  G  Gma7  G

D  G  G2  G  Gma7  G


D  G  G2  G  Gma7 




Ending

  2 2 3        1 1 4                         2 2 3        1 1 4
E----------------------------------------------------------------------------
B----------------------------------------------------------------------------
G-7-7-9--------6-6-4-------------------------7-7-9--------6-6-4--------------
D-5-5-7--------4-4-5----------------0--------5-5-7--------4-4-5--------------
A--------------------------------0h2-p20-------------------------------------
D--0-0-0-0-0-0--0-0--0-0-0-0-0-0--------0-----0-0-0-0-0-0--0-0---------------                    

Commentaires pour accords guitare — Not Home Yet (Chapman Steven Curtis)

Autres partitions pour Not Home Yet de Chapman Steven Curtis:

Dernières vues des partitions de Chapman Steven Curtis: